At The Gates - The Architects Notas de bajo guitarra (tab) descargar gratis o reproducir online

Notas de bajo guitarra (tab) para The Architects de At The Gates descargar gratis, leer o reproducir online. Info de archivo: .txt, 2.63 kb, 39 visualizaciones y 0 descargas.

Descargar notas de bajo guitarra (tab) "The Architects" (At The Gates)

At The Gates Nombre de grupo
The Architects Nombre de canción
Notas de bajo guitarra (tabs) Tipo de nota
2.63 kb Tamaño de archivo
.TXT Tipo de archivo
39 visualizaciones
0 descargas
 
Eres un robot?

The Architects notas de bajo guitarra (tab) leer y reproducir online

                    -------------------------------------------------------------------------------
			     The Architects - At The Gates
-------------------------------------------------------------------------------

Tabbed By: bass_emagdnim
e-mail: tom_dauncey@hotmail.co.uk

Tuning: B E A D (2 & half steps down)

Intro (pt1)
|---------------|x2
|---------------|
|---------------|
|-1-0--1-0-3210-|

Pt2
|----------------|x2
|----------------|
|----------5554~-|
|-1-0--1-0-------|

Riff 1
|----------------------------------------------------------|
|------------7--------5555p4-4-----------7--------5555p4-4-|
|----------6---------------------------6-------------------|
|-111000321-0-1-111000--------111000321-0-1-111000---------|

Verse
|----------------------------------|x2
|----------------------------------|
|-3332222225-3-2-3332225555555p333-|
|----------------------------------|

Riff 2 (hold final note on last time through)
|--------------------------------------------|x2
|--------------------------------------------|
|--------------------------------------------|
|-5555555555552222222222225555555555552--321-|

Riff 3
|------------------------------|x2 |---------------------------|
|-333322225555---333322225-----|   |-555333222---555544447-----|
|------------------------------|   |---------------------------|
|-------------321----------321-|   |----------321----------321-| (hold final note slightly)

Riff 4
|-------------------------------------| x4
|-------------------------------------|
|-----6---7-----6------6---7-----6----|
|-0-1---21--0-1--210-1---21--0-1---21-|

Play
|-----|
|-----|
|-----|
|-321-|

Just before going into Riff 2 (play only once through this time but again, hold the last note)

Riff 3

Riff 4

Riff 5
|-----------------------------3333-|x3   |-------------------------------|
|-333322225555----555544442222-----|     |-333322225555----555544442-----|
|----------------------------------|     |-------------------------------|
|--------------321-----------------|     |--------------321--------------|

Play intro pt1

Pause for "We're going down"

Then play
|-------------------------------|x4
|-------------------------------|
|-7p6--6-6-----7p6-6-6-4--4h5p4-|
|----------5--------------------|

|------------------------------------------------|x4
|------------------------------------------------|
|-7p66666666666------------7p666666666664444h5p3-|
|--------------555555555555----------------------|

Riff 5

Intro pt1

Riff 1

Verse

End on
|-----|
|-----|
|-----|
|-1-0-|

| /  slide up
| \  slide down
| h  hammer-on
| p  pull-off
| ~  vibrato
| +  harmonic
| x  Mute note
===============================================================================                    

Comentarios para notas de bajo guitarra (tab) — The Architects (At The Gates)

Otras notas para The Architects de At The Gates:

Las últimas notas vistas de At The Gates: